TRANSCRIPTIONS    

Judgement Of The Moon And Stars (Ludwig's Tune)

Guitar chords transcribed by Anne Rickaby  Printer-friendly version of this piece
Tuning: DADF#AD   "Joni" Tuning: D75435

Rating: 0.00 (no ratings)
Log in to rate this transcription


Intro:

---------------------------------------------------
------------5--4(p)0--------0--0--2--2--2----------
------------3---------------0--0--2--2--2----------
------------4---------------0--0--2--2--2----------
--------0---0---------2--0-------------------------
--0--5---------------------------------------------


------------------------------------------------------
----------5--4(p)0--------2--2----4--4---4---2--0--0--
----------3---------------1--1----3--3---3---2--0--0--
----------4---------------0--0----2--2---2---2--0--0--
-------0--0---------2--0--------0------0--------------
--0--5------------------------------------------------


----------------------------------------------------------------
---------------------------5--4(p)0--------4--4--4--4--4--4--2--
--0--0--0--0---------------3---------------3--3--3--3--3--3--2--
--0--0--0--0--2--4--2--0---4---------2--0--2--2--2--2--2--2--2--
--0--0--0--0--0--0--0-------------------------------------------
----------------------------------------------------------------


--------6--2-----------
--------------2-----2--
-----------------2-----
-----------------------
--0--------------------
-----------------------

SONG:

                 |||342                     |||222
1. No            tongue in the bell and the fish wives yell
2. In the        court they carve your      legend
3. You've got to shake your fists at        lightning now

                 |543||            |222||   |220||
1. But they      mght as well be   mute
2. With an       apple in its      jaw
3. You've got to roar like forest  fire

                 |||354
1. So you        get to keep the        pictures
2. And the       women that you         wanted
3. You've got to spread your light like blazes now

                         |||222
1. That don't seem like  much
2. They get their        laughs
3. All across the        sky

                 |||342           |||222
1. Cold white    keys under your  fingers
2. Long silk     stockings on the bedposts
3. They're gonna aim the hoses    on you

                       |||576           |||555   |||354
1. Now you're thinking that's no       substitute
2. Of                refinement you're too raw
3.                   Show 'em you won't   expire


4. It just don't do it
5. They think you're too raw
6. Not til you burn up

            |543||                    |222||
1. Like the song of a warm warm       body
2. It's the judgement of the moon and stars
3. Every    passion not even when you die

|02222
1. Loving your touch
2. Your solitary path
3. Come on now

   ||1021          |0234|  |1021
2. Draw yourself a bath
3. You've got to   try

                                            |44444
2. Think what you'd like to have for        supper
3. If you're feeling contempt well then you tell it

             |77777          ||0576
2. Or take a walk, a park, a bridge , a tree
3. If you're tired of the silent night Jesus

                 |55555
2.             A river
3. Well then you yell it

   ||0354                  |22222
2. Revoked but not yet cancelled
3. Condemned to wires and hammers

          |5005|     |0234|         |0000|
2. The    gift       goes           on
3. Strike every      chord that you feel

      |77777            ||1021
2. In silence, in a     bell jar
3. That broken trees and elephant ivories

   |02222
2. Still a song
3. Conceal

 

This transcription is the author's own work and represents their interpretation of the song.
You may only use this file for private study, scholarship, or research.
Copyrighted material on this website is used in accordance with 'Fair Use'

Comments on this transcription


» Log in and be the first to add a comment.