TRANSCRIPTIONS    

Man To Man

Guitar chords transcribed by Marian Russell  Printer-friendly version of this piece
Tuning: DADFGC   "Joni" Tuning: D75325

Rating: 0.00 (no ratings)
Log in to rate this transcription


Intro: 

C---12--4---------4-5--14--12-12------12----2h0--0h2--2--7--2--0-- 
G---12----2-----2------14--12-12----12---------------------------- 
F---12-----------------14--12-12--12--------2h0--0h2--2--7--2--0-- 
D---12------0-0---------------------------------------------------
A-----------------------------------------------------------------
D--0--------------------------------------0-----------------------
  

C--16---12-9-------- 
G--16---12-9-------- 
F--16---12-9-------- 
D------------------- 
A------------------- 
D------------------- 


       |||||| 
       555555
       |||||| 
No     demands just 

|||||| 
777777
|||||| 
pleasurable sensations 

||||||         |||||| 
555555         777777
||||||         |||||| 
hand in hand 

   ||||||         |||||| 
   555555         777777
   ||||||         |||||| 
No far reaching   plans 

   ||||||         |||||| 
   555555         777777
   ||||||         |||||| 
No, no - hand in   hand   Well I 

|  |  |  |  |  |          |||||| 
0 12 12 12 12 12          077770 
|  |  |  |  |  |          |||||| 
keep on trying to         understand Daylight bright 

|||||| 
000000 
|||||| 
How come I keep moving from 

||||||    |||||| 
777777    555555 
||||||    |||||| 
man to    man to man? 

||||||               |||||| 
777777               555555
||||||               |||||| 
giving my sweet love 

||||||               |||||| 
777777               555555
||||||               |||||| 
tasting sweet love 

    |||||| 
    777777
    |||||| 
Real sweet love  Woman to 

|||||| 
000202
|||||| 
man 


Break: 

C------2h0--0h2--2--7--2--0--14--12--12---
G----------------------------14--12--12--- 
F------2h0--0h2--2--7--2--0--14--12--12--- 
D-----------------------------------------
A-----------------------------------------
D--0--------------------------------------
  

2nd Verse: 

Sometimes it's easy 
You drift with the empty gladness 
Like it all belongs 
Sometimes it's low down sadness 
Like it's all gone so wrong 
When I saw you standing there 
I said to myself 
M-m-m here's a place 
I could break down and care 
I'll give him my sweet love 
Real sweet love 
Woman to man 

[Break chords as above] 

3rd Verse: 

I don't like to lie 
But I sure can be phony when I get scared 
I stick my nose up in the air 
Stoney, stoney when I get scared 
And when I saw you standing there 
I was scared 
I thought 
Oh - I hope he can care - 
I sure hope I can care - 
Hope we can really care - 
and share 

| |  |  |  |  | 
0 12 12 12 12 0
| |  |  |  |  | 
woman to man  (repeat) 

'Cause I've been moving 

||||||   |||||| 
555555   777777  ... etc. .... 
||||||   |||||| 
man to   man    to man to man to man 

Oh what am I looking for 
man to man to man to man to man 
A lot of good guys gone through my door 
(Man to man to man to man 
to man to man to man to man 
Man to man to man to man to man 
Woman to 


D----------------------14-10-7-------- 
A------5-3-5-5-10-5-3--14-10-7-------- 
G----------------------14-10-7-------- 
D------5-3-5-5-10-5-3----------------- 
A------5-3-5-5-10-5-3----------------- 
D----0-------------------------------- 
  

C-----2h0--0h2--2--7--2--0------14--12--12--------12---
G-------------------------------14--12--12-----12------
F-----2h0--0h2--2--7--2--0------14--12--12--12---------
D------------------------------------------------------
A------------------------------------------------------
D--0---------------------------------------------------
      man
   

C-----2h0--0h2--2--7--2--0------16---12--9---
G-------------------------------16---12--9---
F-----2h0--0h2--2--7--2--0------16---12--9---
D--------------------------------------------
A--------------------------------------------
D--0-----------------------------------------


© 1982 Crazy Crow Music (BMI)

 

This transcription is the author's own work and represents their interpretation of the song.
You may only use this file for private study, scholarship, or research.
Copyrighted material on this website is used in accordance with 'Fair Use'

Comments on this transcription


» Log in and be the first to add a comment.