TRANSCRIPTIONS    

Woman Of Heart And Mind

Guitar tablature transcribed by Mark Domyancich and Sue McNamara  Printer-friendly version of this piece
Tuning: BF#C#EBD#   "Joni" Tuning: B77374

Rating: 0.00 (no ratings)
Log in to rate this transcription


Note: This is just a tab version of Sue's original post.
I found another tuning that is suggested for this song. It doesn't make a whole lot of
difference, but it sounds really good. Also, there are 2 guitars playing, but unlike other 
doubled guitar songs that Joni has written, this is not a 'double-for-double' recording. 
It sounds to me like someone is playing right along with Joni (Probably herself!) but 
isn't keeping up with her!

h - hammer on

-----------------0------------------0---------------------
-----------------0------------------0---------------------
--------------9--9---------------9--9---------------------
--------------9--9---------------9--9---------------------
-0-h-2-h-3----------0-h-2-h-3-----------0-h-2-h-3---------
-----------0------------------0---------------------------

----------0-----------------------------------------------
----------0-----------------------------------------------
-9-----9--9--9---12---14----9--9-----0--------------------
-9--9--9--9--9---12---14----9--9-----0--------------------
----------------------------------------------------------
----------------------------------------------------------
I am a woman of heart and mind with

--------0----------0-----5--5-----------------------------
--------0----------0-----5--5-----------------------------
--------4----------4-----5--5---5--5----------------------
--------5----------5------------5--5---5--5---------------
--------5----------5-------------------5--5---0-----------
-5--5---5---5--5---5--------------------------0-----------
Time on her hands, no child to raise

-------------0-------------0------------------------------
-------0-----0---0---------0------------------------------
-------1-----1---0---2--2--2--2--0------------------------
-2--2--2--2------0---2--2--2--2--0------------------------
-2--2--2--2-----------------------------------------------
-2--2--2--2-----------------------------------------------
You come to me like a little boy and I give you my scorn

----------------------------------------------------------
-2--5--4--0--0--2---2--5--4--0--0-------------------------
-2--5--4--0--0--2---2--5--4--0--0-------------------------
----------------------------------------------------------
----------------------------------------------------------
----------------------------------------------------------
and my praise

----------0-----------------------------------------------
----------0-----------------------------------------------
-9-----9--9--9---12---14----9--9-----0--------------------
-9--9--9--9--9---12---14----9--9-----0--------------------
----------------------------------------------------------
----------------------------------------------------------
You think I'm like your mother

--------0----------0-----5--5-----------------------------
--------0----------0-----5--5-----------------------------
--------4----------4-----5--5---5--5----------------------
--------5----------5------------5--5---5--5---------------
--------5----------5-------------------5--5---0-----------
-5--5---5---5--5---5--------------------------0-----------
Or another lover or your sister or the queen of your dreams

-------------0-------------0------------------------------
-------0-----0---0---------0------------------------------
-------1-----1---0---2--2--2--2--0------------------------
-2--2--2--2------0---2--2--2--2--0------------------------
-2--2--2--2-----------------------------------------------
-2--2--2--2-----------------------------------------------
Or just another silly girl when love makes a fool

----------------------------------------------------------
-2--5--4--0--0--2---2--5--4--0--0-------------------------
-2--5--4--0--0--2---2--5--4--0--0-------------------------
----------------------------------------------------------
----------------------------------------------------------
----------------------------------------------------------
Of me.

Same tab for the rest of the verses.

After the rush when you come back down
You're always disappointed
Nothing seems to keep you high
Drive your bargains
Push your papers
Win your medals
Fuck your strangers
Don't it leave you on the empty side

I'm looking for affection and respect
A little passion
And you want stimulation-nothing more
That's what I think
But you know I'll try to be there for you
When your spirits start to sink

All this talk about holiness now
It must be the start of the latest style
Is it all books and words
Or do you really feel it?
Do you really laugh?
Do you really care?
Do you really smile
When you smile?

You criticize and you flatter
You imitate the best
And the rest you memorize
You know the times you impress me most
Are the times when you don't try

Outtro:
----------------------------------------------------------
-2--5--4--0--0--2---2--5--4--0----------------------------
-2--5--4--0--0--2---2--5--4--0----------------------------
----------------------------------------------------------
----------------------------------------------------------
----------------------------------------------------------

----------------------------------------------------------
----------------------------------------------------------
-2--5--4--0--0--2---2--5--4--0--0--2----------------------
-2--5--4--0--0--2---2--5--4--0--0--2----------------------
----------------------------------------------------------
----------------------------------------------------------
When you don't even try.

-------------------------------------------2--------------
--------------------------------------------2-------------
-2--5--4--0--0-------------------------------2------------
-2--5--4--0--0--------------------------------2-----------
----------------------0-h-2-h-3----------------0----------
------------------------------------0-----------0---------

©1972 Crazy Crow Music, all rights reserved.

 

This transcription is the author's own work and represents their interpretation of the song.
You may only use this file for private study, scholarship, or research.
Copyrighted material on this website is used in accordance with 'Fair Use'

Comments on this transcription


» Log in and be the first to add a comment.