TRANSCRIPTIONS    

Carnival In Kenora

Guitar tablature transcribed by Mark Domyancich  Printer-friendly version of this piece
Tuning: CGCGCE   "Joni" Tuning: C75754

Rating: 0.00 (no ratings)
Log in to rate this transcription


Intro:

-----3-----3---------3---------1-----1-----1-----1---
---0-----0-----0---0---------0-----0-----0-----0-----
-4-----4-----4---5-----4---------2-----2-----3----2--
-------------------------0-2------------------------2
-----------------------------------------------------
-----------------------------------------------------

                           {---pick near bridge---}
-----1-----1-------1-----1--0-0-1-0-1-0--0-0-1-0-1
---0-----0-------0-----0----0-0-0-0-0-0--0-0-0-0-0
-------------0-3------------0-0-2-0-2-0--0-0-2-0-2
-------3-------------2------0-0-0-0-0-0--0-0-0-0-0
-3------------------------------------------------
--------------------------------------------------


000403            000503      000403
Twinkle, twinkle, what    a   pity

000201       000301 000201 002201
All alone on such a pretty night

     002301      002201
With enchantment on you side

{---pick near bridge---}
-0-0-1-0-1-0--0-0-1-0-1
-0-0-0-0-0-0--0-0-0-0-0
-0-0-2-0-2-0--0-0-2-0-2
-0-0-0-0-0-0--0-0-0-0-0
-----------------------
-----------------------

Same chords as above:
Popcorn, popcorn, cotton candy,
Soft voice whispers,
"This can all be right
If you'll come and share a ride."

555555  555557  555558 5 5 5 5 5 10  555558  555557  555555
Carn  -   i   - val    in            Ken  -  or   -  a

888888  8 8 8 8 8 10  8 8 8 8 8 11  8 8 8 8 8 13  8 8 8 8 8 11  8 8 8 8 8 10
I       let           him           take          me            for a 

000000
ride

     002201
On a giant ferris wheel

{---pick near bridge---}
-0-0-1-0-1-0--0-0-1-0-1
-0-0-0-0-0-0--0-0-0-0-0
-0-0-2-0-2-0--0-0-2-0-2
-0-0-0-0-0-0--0-0-0-0-0
-----------------------
-----------------------

555555  555557  555558 5 5 5 5 5 10  555558  555557  555555
Up      in      the    ne    -       on      sky     or

888888      8 8 8 8 8 10   8 8 8 8 8 11  8 8 8 8 8 13  8 8 8 8 8 11  8 8 8 8 8 10
        Far from           the           bar      -    ker's        cry

888888  000000
One     kiss

    002201             ||0504
Can sometimes make you feel

       |||503   ||5|03 
Like a spinning Ferris wheel

{--------pick near bridge--------}
-0-0-1-0-1-0--0-0-1-0-1--0-0-1-0-1
-0-0-0-0-0-0--0-0-0-0-0--0-0-0-0-0
-0-0-2-0-2-0--0-0-2-0-2--0-0-2-0-2
-0-0-0-0-0-0--0-0-0-0-0--0-0-0-0-0
----------------------------------
----------------------------------

All the tents are taken down now
All that's left is scuffled ground now
Still the magic echoes in the sand

Popcorn, popcorn, cotton candy
Now a stranger takes my hand
We smile and the magic understands

Carnival in Kenora
I let him take me for a ride
On a giant Ferris wheel
Up in the neon sky
Or far from the barker's cry
One kiss can sometimes
Make you feel like a
Spinning Ferris wheel

© 1967 Gandalf Publishing Corp., all rights reserved.

 

This transcription is the author's own work and represents their interpretation of the song.
You may only use this file for private study, scholarship, or research.
Copyrighted material on this website is used in accordance with 'Fair Use'

Comments on this transcription


» Log in and be the first to add a comment.