TRANSCRIPTIONS    

The Priest

Guitar tablature transcribed by John Kean and Howard Wright  Printer-friendly version of this piece
[Capo on fret 5]
Tuning: DADGAE   "Joni" Tuning: D75527

Rating: 0.00 (no ratings)
Log in to rate this transcription


Capo: fret 5.

2/4 timing, beats equidistant in tab.
Bass drum part marked with !.

   !   !   !   !     !   !   !   !     !   !   !   !     !   !   !   !
||-----------------|-----------------|-----------------|-----------------|
||-----------------|-----------------|-----------------|-----------------|
||-----7-----------|-7-------5-------|-0h2---------2---|---------2-------|
||-----0-----------|-0-------0-------|-0h2---------2---|---------2-------|
||-----5-----7-----|-7-------5-------|-------0---------|---0-------------|
||-0---0---0---0---|-0---0---0---0---|-0---0---0---0---|-0---0---0---0---|


                                      !   !   !   !     !   !   !   !
|-----------------|-----------------|-----------------|-------------0---|
|-----------------|-----------------|-----------------|-------------0---|
|-------0-------0-|-------0---------|-----2-----------|-2-------2-------|
|-----0-------0---|-----0-------0---|-----2-----------|-2-------2-------|
|-0h3-----3-------|-0h2-----0h2-----|-----------0-----|-----------------|
|-----------------|-----------------|-0---0---0---0---|-0---0---0---0---|


  !   !   !   !     !                 !   !
|-----------------|-0---------------|----10-----------|------------------|
|-----------------|-0-------0-------|-----0-----------|------------0-----|
|-----0-----------|---------0-------|----10----10-----|-10h12-10------10-|
|-----2-----------|-----2-------0---|---------0-------|------0-------0---|
|-----------0-----|---------0-------|-------------0---|--0-------0-------|
|-0---0---0---0---|-0---------------|-0---0-----------|------------------|


  !   !                                 !   !
|----10-----------|------------------||----10-----------|------------------|
|-----0-----------|------------0-----||-----0-----------|------------0-----|
|----10----10-----|-10h12-10------10-||----------10-----|-10----10------10-|
|---------0-------|------0-------0---||---------0-------|------0-------0---|
|-------------0---|--0-------0-------||-------------0---|--0-------0-------|
|-0---0-----------|------------------||-0---0-----------|------------------|
                                   The Priest sat in the airport bar, he was

  !                 !   !                                !   !
|-------------3---|----10-----------|------------------|----10-----------|
|-----3-----------|-----0-----------|------------0-----|-----0-----------|
|-----------5-----|----------10-----|-10----10------10-|----------10-----|
|-----5-------5---|---------0-------|------0-------0---|---------0-------|
|---------0-------|-------------0---|--0-------0-------|-------------0---|
|-0---------------|-0---0-----------|------------------|-0---0-----------|
  wearing his fathers        tie

                     !                                    !
|------------------|----10-----------|------------------|-------------3---|
|------------------|-----0-----------|------------0-----|-----3-----------|
|-10h12-10------10-|----------10-----|-10h12-10------10-|-----------5-----|
|------0-------0---|---------0-------|------0-------0---|-----5-------5---|
|--0-------0-------|-------------0---|--0-------0-------|---------0-------|
|------------------|-0---0-----------|------------------|-0---------------|
            And his eyes looked into my eyes so far whenever the words ran

  !   !                                !   !
|----10-----------|------------------|----10-----------|------------------|
|-----0-----------|------------------|-----0-----------|------------0-----|
|----------10-----|-10----10------10-|----------10-----|-12p10-10---------|
|---------0-------|------0-------0---|---------0-------|------0-------0---|
|-------------0---|--0-------0-------|-------------0---|--0-------0-------|
|-0---0-----------|------------------|-0---0-----------|------------------|
          dry


|-----------0-----|-----------0-----|-----------0-----|-----------------|
|-0---------------|-0---------------|-0---------------|-----------------|
|--------2--------|-------2---------|-------0---------|-0-------0-------|
|-----2-------0---|-----3------(0)--|-----2-------0---|-2---2-------2---|
|-----------------|-3-------3-------|-2-------2-------|-0-------0-------|
|-0-------0-------|-----------------|-----------------|-0---------------|
 Behind the lash and the circle blue he looked as only a priest can through

                                                        !   !
|-0---------------|-----------------|-0---------------|----10-----------|
|-0---------0-----|-----------0-----|-0---------0-----|-----0-----------|
|-------0---------|-0-----0---------|-------0---------|----------10-----|
|-----2-------2---|-----2-------2---|-----2-------2---|---------0-------|
|-0-------0-------|---------0-------|-0-------0-------|-------------0---|
|-----------------|-0---------------|-----------------|-0---0-----------|
                                               And his eyes said me


|------------0-----|-----------3-----|-----------3-----|-----------------|
|------------------|-----------------|-3---------------|-3---------3-----|
|-10----10---------|-------5---------|-------5---------|-------5---------|
|------0-------0---|-----5-------5---|-----5-------5---|-----5-------5---|
|--0-------0-------|---------0-------|-0-------0-------|-0-------0-------|
|------------------|-0---------------|-----------------|-----------------|
            And his eyes said you

                                       !   !       !     !   !   !   !
|-----------------|-----------------||-----------------|-----------------|
|-3---------3-----|-8-------7-------||-----------------|-----------------|
|-------5---------|-----------------||-----7-----------|-7-------5-------|
|-----5-------5---|-----0-------0---||-----0-----------|-0-------0-------|
|---------0-------|-0-------0-------||-----5-----7-----|-7-------5-------|
|-0---------------|-----------------||-0---0---0---0---|-0---0---0---0---|
            And my eyes said let us try.

  !   !   !   !     !   !   !   !
|-----------------|-----------------|-----------------|-----------------|
|-----------------|-----------------|-----------------|-----------------|
|-0h2---------2---|---------2-------|-------0-------0-|-------0---------|
|-0h2---------2---|---------2-------|-----0-------0---|-----0-------0---|
|-------0---------|---0-------------|-0h3-----3-------|-0h2-----0h2-----|
|-0---0---0---0---|-0---0---0---0---|-----------------|-----------------|


  !   !   !   !     !   !   !   !     !   !   !   !     !
|-----------------|-------------0---|-----------------|-0---------------||
|-----------------|-------------0---|-----------------|-0---------------||
|-----2-----------|-2-------2-------|-----0-----------|-------0---2-----||
|-----2-----------|-2-------2-------|-----2-----------|-----2-------0---||
|-----------0-----|-----------------|-----------0-----|---------0-------||
|-0---0---0---0---|-0---0---0---0---|-0---0---0---0---|-0---------------||


  !   !                                !                 !   !
|----10-----------|-----------10-----|-------------3---|----10-----------|
|-----0-----------|------------------|-----3-----------|-----0-----------|
|----------10-----|-10----10---------|-----------5-----|----------10-----|
|---------0-------|------0-------0---|-----5-------5---|---------0-------|
|-------------0---|--0-------0-------|---------0-------|-------------0---|
|-0---0-----------|------------------|-0---------------|-0---0-----------|
 He said, "You wouldn't like it here, no it's no place you should share"

                     !   !                                !   !
|------------0-----|----10-----------|------------0-----|----10-----------|
|------------------|-----0-----------|------------------|-----0-----------|
|-10----10------10-|----------10-----|-12p10-10------10-|----------10-----|
|------0-------0---|---------0-------|------0-------0---|---------0-------|
|--0-------0-------|-------------0---|--0-------0-------|-------------0---|
|------------------|-0---0-----------|------------------|-0---0-----------|
                                                   "The roof is ripped with

                     !                 !   !
|-----------10-----|-------------3---|----10-----------|------------0-----|
|------------------|-----3-----------|-----0-----------|------------------|
|-10h12-10---------|-----------5-----|----------10-----|-10h12-10------10-|
|------0-------0---|-----5-------5---|---------0-------|------0-------0---|
|--0-------0-------|---------0-------|-------------0---|--0-------0-------|
|------------------|-0---------------|-0---0-----------|------------------|
  hurricanes and the room is always bare"

  !   !
|----10-----------|------------0-----|-----------0-----|-----------0-----|
|-----0-----------|------------------|-0---------------|-0---------------|
|----------10-----|-10h12-10---------|-----2-----------|-------2---------|
|---------0-------|------0-------0---|-2-----------0---|-----3-------0---|
|-------------0---|--0-------0-------|-0-------0-------|-3-------3-------|
|-0---0-----------|------------------|-----------------|-----------------|
                                   "I need the wind and recieve the cold",


|-----------0-----|-----------------|-0---------------|-----------------|
|-0---------------|-----------------|-0---------------|-----------------|
|-------0---------|-2-----2---2-----|-2-------2-------|-0-----0---0-----|
|-----2-------2---|-2---2-------2---|-----2-------2---|-----2-------2---|
|-2-------2-------|-0-------0-------|-0-------0-------|-0-------0-------|
|-----------------|-----------------|-----------------|-----------------|
 He reached past the wine for my hand to hold


|-0---------------|----10-----------|------------------|-----------3-----|
|-0---------------|-----0-----------|------------0-----|-3---------------|
|---------0-------|----------10-----|-10---------------|-----------5-----|
|-----2-------2---|---------0-------|------0-------0---|-----5-------5---|
|-0-------0-------|-------------0---|--0-------0-------|-0-------0-------|
|-----------------|-0---0-----------|------------------|-----------------|
            And he saw me young                                    and he


|-----------------|-----------3-----|-----------3-----|-----------------||
|-----------3-----|-----------------|-----------------|-8-------7-------||
|-------5---------|-------5---------|-------5---------|-----------------||
|-----5-------5---|-----5-------5---|-----5-------5---|-----0-------0---||
|-0-------0-------|-0-------0-------|-0-------0-------|-0-------0-------||
|-----------------|-----------------|-----------------|-----------------||
  saw me old                                    and he saw me sitting

  !   !   !   !     !   !   !   !     !   !   !   !     !   !   !   !
|-----------------|-----------------|-----------------|-----------------|
|-----------------|-----------------|-----------------|-----------------|
|-----7-----------|-7-------5-------|-0h2---------2---|---------2-------|
|-----0-----------|-0-------0-------|-0h2---------2---|---------2-------|
|-----5-----7-----|-7-------5-------|-------0---------|---0-------------|
|-0---0---0---0---|-0---0---0---0---|-0---0---0---0---|-0---0---0---0---|
  there

                                      !   !   !   !     !   !   !   !
|-----------------|-----------------|-----------------|-------------0---|
|-----------------|-----------------|-----------------|-------------0---|
|-------0-------0-|-------0---------|-----2-----------|-2-------2-------|
|-----0-------0---|-----0-------0---|-----2-----------|-2-------2-------|
|-0h3-----3-------|-0h2-----0h2-----|-----------0-----|-----------------|
|-----------------|-----------------|-0---0---0---0---|-0---0---0---0---|


  !   !   !   !     !                  !   !
|-----------------|-0---------------||----10-----------|------------------|
|-----------------|-0---------------||-----0-----------|------------0-----|
|-----0-----------|-------0---2-----||----------10-----|-10h12-10---------|
|-----2-----------|-----2-------0---||---------0-------|------0-------0---|
|-----------0-----|---------0-------||-------------0---|--0-------0-------|
|-0---0---0---0---|-0---------------||-0---0-----------|------------------|
                              Then he took his contradictions out and he

  !                 !   !                                !   !
|-----------3-----|----10-----------|------------------|----10-----------|
|-----------------|-----0-----------|------------0-----|-----------------|
|-------5---------|----------10-----|-12p10-10------10-|----------10-----|
|-----5-------5---|---------0-------|------0-------0---|---------0-------|
|---------0-------|-------------0---|--0-------0-------|-------------0---|
|-0---------------|-0---0-----------|------------------|-0---0-----------|
  splashed them on my       brow

                     !   !                                !
|------------------|----10-----------|------------------|-----------3-----|
|----8-------------|-----------------|----0-------0-----|--------3--------|
|-10----10------10-|----------10-----|-10----10---------|-----5-----------|
|------0-------0---|---------0-------|------0-------0---|-----5-------5---|
|--0-------0-------|-------------0---|--0-------0-------|---------0-------|
|------------------|-0---0-----------|------------------|-0---------------|
                 So which words was I then to doubt when choosing what to

  !   !                                !   !
|----10-----------|------------------|----10-----------|------------------|
|-----0-----------|------------0-----|-----0-----------|------------0-----|
|----------10-----|-10----10------10-|----------10-----|-10h12-10---------|
|---------0-------|------0-------0---|---------0-------|------0-------0---|
|-------------0---|--0-------0-------|-------------0---|--0-------0-------|
|-0---0-----------|------------------|-0---0-----------|------------------|
      vow                                                         Should I


|-----------0-----|-----------0-----|-----------0-----|-----------------|
|-0---------------|-0---------------|-0---------------|-----------------|
|--------2--------|-------2---------|-------0---------|-2-------2-------|
|-----2-------0---|-----3------(0)--|-----2-------0---|-2---2-------2---|
|-----------------|-3-------3-------|-2-------2-------|-0-------0-------|
|-0-------0-------|-----------------|-----------------|-0---------------|
 choose them all, should I make them mine? The sermons, the hymns, and the


|-0---------------|-----------------|-0---------------|----10-----------|
|-0---------------|-----------------|-0---------------|-----------------|
|-2-------2-------|-0-----0---0-----|---------0-------|----------10-----|
|-----2-------2---|-----2-------2---|-----2-------2---|---------0-------|
|-0-------0-------|-0-------0-------|-0-------0-------|-------------0---|
|-----------------|-----------------|-----------------|-0---0-----------|
 valentines?                                    And he asked for truth


|------------0-----|-----------3-----|-----------3-----|-----------3-----|
|------------------|-----------------|-3---------------|-3---------------|
|-10----10---------|-------5---------|-------5---------|-------5---------|
|------0-------0---|-----5-------5---|-----5-------5---|-----5-------5---|
|--0-------0-------|---------0-------|-0-------0-------|-0-------0-------|
|------------------|-0---------------|-----------------|-----------------|
             And he asked for time

                                       !   !       !     !   !   !   !
|-----------3-----|-----------------||-----------------|-----------------|
|-3---------------|-8-------7-------||-----------------|-----------------|
|-------5---------|-----------------||-----7-----------|-7-------5-------|
|-----5-------5---|-----0-------0---||-----0-----------|-0-------0-------|
|-0-------0-------|-0-------0-------||-----5-----7-----|-7-------5-------|
|-----------------|-----------------||-0---0---0---0---|-0---0---0---0---|
            And he asked for only          now.

  !   !   !   !     !
|-----------------|---------0-------||-10---------------|-10---------------|
|-----3-----------|-----------------||------------0-----|------------0-----|
|-----------------|-2---------------||-------10---------|-------10---------|
|-----2-----2-----|-0---------------||------0-------0---|------0-------0---|
|-----------------|-----------------||----------0-------|--0-------0-------|
|-0---0---0---0---|-0---0---0---0---||--0---------------|------------------|
                                       Now the trials are trumpet-scored,

   !                !   !                                 !   !
|------------3---|-10---------------|-10---------------|-10---------------|
|----3-----------|------------0-----|------------0-----|------------0-----|
|----------5-----|-------10---------|-------10---------|-------10---------|
|----5-------5---|------0-------0---|------0-------0---|------0-------0---|
|--------0-------|--0-------0-------|--0-------0-------|--0-------0-------|
|-0--------------|------------------|------------------|------------------|
 Oh, will we pass the   test


                      !   !                                !
|-10---------------|-10---------------|-10---------------|------------3-----|
|------------0-----|------------0-----|------------------|------------------|
|-------10---------|-------10---------|-------10---------|-------5----------|
|------0-------0---|------0-------0---|------0-------0---|-----5--------5---|
|--0-------0-------|--0-------0-------|--0-------0-------|----------0-------|
|------------------|------------------|------------------|-0----------------|
                 Or just as one loves more and more, will one love less and


  !   !                                !   !
|----10-----------|------------------|----10-----------|------------0-----|
|-----------------|----8-------------|-----------------|----8-------------|
|----------10-----|-10----10------10-|----------10-----|-10----10---------|
|---------0-------|------0-------0---|---------0-------|------0-------0---|
|-------------0---|--0-------0-------|-------------0---|--0-------0-------|
|-0---0-----------|------------------|-0---0-----------|------------------|
      less                                                         Oh come,

                                                        !
|-----------0-----|-----------0-----|-----------0-----|-----------------|
|-3---------------|-3---------------|-3---------------|-----------------|
|-2-----2---------|-2-----2---------|-2-----2---------|-2-------2-------|
|-----2-------2---|-----0-------0---|-----0-------0---|-2-------2-------|
|---------0-------|-3-------3-------|-2-------2-------|-0-------0-------|
|-0---------------|-----------------|-----------------|-----------------|
let's run from this ring we're in, where the Christians clap and the Germans

          !   !     !   !   !   !     !   !   !   !     !   !   !   !
|-0---------------|-----------------|-----------------|-----------------|
|-3---------------|-----------------|-----------------|-----------------|
|-2-------2-------|-2---2---2---2---|-2---2---2---2---|-0---0---0---0---|
|---------2-------|-2---2---2---2---|-2---2---2---2---|-2---2---2---2---|
|-0-------0-------|-0---0---0---0---|-0---0---0---0---|-0---0---0---0---|
|-----------------|---------0-------|-----------------|-----------------|
  grin

  !   !   !   !
|---------0-------|----10-----------|------------0-----|-3---------------|
|-----------------|-----------------|----0-------------|-0---------0-----|
|-0---0---0---0---|----------10-----|-10---------------|-------5---------|
|-2---2-------2---|---------0-------|------0-------0---|-----5-------5---|
|-0---0---0---0---|-------------0---|--0-------0-------|-0-------0-------|
|-----------------|-0---0-----------|------------------|-----------------|
            Crying let them lose                         saying let them


|-3---------------|-3---------------|-3---------------|-----------------||
|-0---------0-----|-0---------0-----|-0---------0-----|-8-------7-------||
|-------5---------|-------5---------|-------5---------|-----------------||
|-----5-------5---|-----5-------5---|-----5-------5---|-----0-------0---||
|-0-------0-------|-0-------0-------|-0-------0-------|-0-------0-------||
|-----------------|-----------------|-----------------|-----------------||
  win                                               Oh, make them both

  !   !   !   !     !   !   !   !     !   !   !   !     !   !   !   !
|-----------------|-----------------|-----------------|-----------------|
|-----------------|-----------------|-----------------|-----------------|
|-----7-------7---|-----------------|-----7-----------|-7---------------|
|-----0-------0---|-----------------|-----0-----------|-0---------------|
|-----7-------7---|-----------------|-----7-----------|-7---------------|
|-0---0---0---0---|-0---0---0---0---|-0---0---0---0---|-0---0---0---0---|
 confess.

  !   !   !   !     !   !   !   !
|-----------------|-----------------|----10-----------|------------------|
|-----------------|-----------------|-----0-----------|------------------|
|---------7-------|-7---------------|----------10-----|-12p10-10------10-|
|---------0-------|-0---------------|---------0-------|------0-------0---|
|---------7-------|-7---------------|-------------0---|--0-------0-------|
|-0---0---0---0---|-0---0---0---0---|-0---0-----------|------------------|


                             !
|----10--10---9---|-10----------------||
|-----0---0---0---|--0----------------||
|----10--10---9---|-10----------------||  Fine.
|-----0---0---0---|--0----------------||
|-----------------|-------------------||
|-0---------------|----------0--------||

 

This transcription is the author's own work and represents their interpretation of the song.
You may only use this file for private study, scholarship, or research.
Copyrighted material on this website is used in accordance with 'Fair Use'

Comments on this transcription


» Log in and be the first to add a comment.