TRANSCRIPTIONS    

Sisotowbell Lane

Guitar tablature transcribed by Marian Russell  Printer-friendly version of this piece
[Capo on fret 2]
Tuning: CGDFCE   "Joni" Tuning: C77374

Rating: 10.00 (1 ratings)
Log in to rate this transcription


Fret numbers are counted from capo (e.g. 2 means 2nd fret from capo, actually fret 4).

In the tablature, notations in parentheses mean that the notes are sounded 
by virtue being part of the chord shape - they should not be plucked - e.g.,
in the first line of the Intro, the chord shape is actually a hammered barre 
on the 5th fret, but the only string that is plucked is 4th (D) string.

+++++++++++++++++

Intro:

E----------------0-----------(0h5)-----5-------------
C-------------0----0----0----(0h5)---5----5-----0----
F----(0h2)-2----------0------(0h5)-5---------0-------
D-----0h2-------------0-------0h5------------0-------
G----------------------------(0h5)-------------------
C--0-----------------------0-(0h5)-------------------


E----------------0-----------(0h5)-----5-------------
C-------------0----0----0----(0h5)---5----5-----0----
F----(0h2)-2----------0------(0h5)-5---------0-------
D-----0h2-------------0-------0h5------------0-------
G----------------------------(0h5)-------------------
C--0-----------------------0-(0h5)-------------------


1st verse:

E--------0--------0---5-----5-----------8-------5---------
C---------------0---------5-------5-------------------5---
F------------2----------5-------5----5--------5-----5-----
D------2---2------------------5-------------5-----5-------
G----0----------0-----0-----0-----------0-----------------
C--0-----0------------------------------------------------
         Siso-  towbell Lane ...             Noah is fixing the



E---0-----------3------0--------------------3---------0---------
C-------------0----------------0---------------------------0----
F---0-------0-------0-----0--------------2---------2------------
D--(2)------------2---(2)-------------2---------2---------------
G---2-----------2------2----------------------------------------
C------------------------------0------------0---------0---------
  Pump in the   rain      he   brings us no shame          We


||||||    ||||||
000010    000020
||||||    ||||||
al -      ways


||||||     ||||||      ||||||   ||||||    ||||||
000023     000000      000010   000020    000023
||||||     ||||||      ||||||   ||||||    ||||||
knew                                           


||||||      ||||||   ||||||
000000      000010   000020
||||||      ||||||   ||||||
that he        al -    ways


|| |   |||    ||||||
00 02h 200    000000
|| |   |||    ||||||
knew


|| |   |||    ||||||
00 02h 200    000000
|| |   |||    ||||||


||||||      ||||||     ||||||
002200      005555     005558 
||||||      ||||||     ||||||
Up over the hill


||||||                ||||||         ||||||
005555                022000         022003   
||||||                ||||||         ||||||
Jovial neighbors come down when they will


||||||
002200
||||||
with stories to tell   Some-


||||||    ||||||
000010    000020
||||||    ||||||
times     they do


||||||     ||||||      ||||||   ||||||    ||||||
000023     000000      000010   000020    000023
||||||     ||||||      ||||||   ||||||    ||||||


||||||      ||||||   ||||||
000000      000010   000020
||||||      ||||||   ||||||
yes, some-  times    we


|| |   |||    ||||||
00 02h 200    000000
|| |   |||    ||||||
do 


|| |   |||    ||||||
00 02h 200    000000
|| |   |||    ||||||


||||||         ||||||  |||||| 
055555         055558  055555
||||||         ||||||  ||||||
     We have a rocking chair


||||||      ||||||    ||||||
005500      005503    005500
||||||      ||||||    |||||| 
Each of us  rocks his share   Eating


||||||                          ||||||
022000                          002200
||||||                          ||||||
muffin buns and berries by the  steamy kitchen window


||||||   ||||||   ||||||   ||||||   ||||||
000010   000020   000023   000000   000010
||||||   ||||||   ||||||   ||||||   ||||||
                            Some -  times



||||||   ||||||   ||||||   ||||||   ||||||
000020   000023   000000   000010   000020
||||||   ||||||   ||||||   ||||||   ||||||
we        do        our    tongues   turn



E----------------0-----------(0h5)-----5-------------
C-------------0----0----0----(0h5)---5----5-----0----
F----(0h2)-2----------0------(0h5)-5---------0-------
D-----0h2-------------0-------0h5------------0-------
G----------------------------(0h5)-------------------
C--0-----------------------0-(0h5)-------------------
   blue


E----------------0-----------(0h5)-----5-------------
C-------------0----0----0----(0h5)---5----5-----0----
F----(0h2)-2----------0------(0h5)-5---------0-------
D-----0h2-------------0-------0h5------------0-------
G----------------------------(0h5)-------------------
C--0-----------------------0-(0h5)-------------------



2nd verse:

Sisotowbell Lane
Anywhere else now would seem very strange
The seasons are changing
Everyday in every way
Sometimes it is spring
Sometimes it is not anything
A poet can sing
Sometimes we try
Yes we always try
We have a rocking chair
Some days we rock and stare
At the woodlands and the grasslands and the badlands
'cross the river
Sometimes we do
We like the view


3rd verse:

Sisotowbell Lane
Go to the city you'll come back again
To wade through the grain
You always do
Yes we always do
Come back to the stars
Sweet well water and pickling jars
We'll lend you the car
We always do
Yes sometimes we do
We have a rocking chair 
Someone is always there
Rocking rhythms while they're waiting with the
candle in the window
Sometimes we do
We wait for you


E----------------0-----------(0h5)-----5-------------
C-------------0----0----0----(0h5)---5----5-----0----
F----(0h2)-2----------0------(0h5)-5---------0-------
D-----0h2-------------0-------0h5------------0-------
G----------------------------(0h5)-------------------
C--0-----------------------0-(0h5)-------------------
   blue


E----------------0-----------(0h5)-----5-------------
C-------------0----0----0----(0h5)---5----5-----0----
F----(0h2)-2----------0------(0h5)-5---------0-------
D-----0h2-------------0-------0h5------------0-------
G----------------------------(0h5)-------------------
C--0-----------------------0-(0h5)-------------------


E-----------------0--------------0----
C--------------0----0----------0------
F--------0h2-----------------0--------
D--------0h2---------------0----------
G------0-----------------0------------
C----0-----------------0--------------

©1968 Siquomb Publishing, Inc.

 

This transcription is the author's own work and represents their interpretation of the song.
You may only use this file for private study, scholarship, or research.
Copyrighted material on this website is used in accordance with 'Fair Use'

Comments on this transcription


» Log in and be the first to add a comment.