transcription from jonimitchell.com


Daisy Summer Piper

Guitar tablature transcribed by Marian Russell
[Capo on fret 2]
Tuning: DADF#AD   "Joni" Tuning: D75435

Intro:

        slide to
002102  =========>   004304 


	hammer on to
000000  =========>   022100


        slide to
002102  =========>   004304 


	hammer on to
000000  =========>   022100


        slide to
002102  =========>   004304 


	hammer on to
000000  =========>   022100



044300  022100  000000  022100  000000  022100  000000


000000           022100    022102 slide to ===> 044304
Come and take me by the hand


044304                022102  022100
There's so much to be seen

000797                 000575
The fields are dancing daisy bright

044304            022102   022100
Hills are dappled green


000000          022100    022102 slide to ===> 044304
Winter wind has ceased her labor

044304          022102   022100  000000
Giving birth to blossom rain 


044300  022100   000000  
as      sweet as wine



D------4-------------------------4--7--4----------4----
A------4------4-------4---------4---------7--5--4------
F#----------0-------0----------0-----------------------
D---------0-------0------0----0------------------------
A----------------------------0-------------------------
D------0--------------------0--------------------------



000000             022100 
And maybe you will fall in love


    055400   022100    000000  022100  000000  022100  000000
And maybe    you'll be mine


Chorus:

055400       022100          002100   002104 002100  00214x  00210x
Daisy summer piper's come to town


055400        022100
Piping people out of doors

055405        022102    022100
To see the magic all around

055405            002102            000000
Listen now you'll hear his sound


D------4-------------------------4--7--4----------4----
A------4------4-------4---------4---------7--5--4------
F#----------0-------0----------0-----------------------
D---------0-------0------0----0------------------------
A----------------------------0-------------------------
D------0--------------------0--------------------------



000000  hammer on to ====>  022100



022102  slide to ====>   044304   022102   022120  022100


000000  022100  000000


Additional verse:


We'll stare into a mirror pool
And laugh so princely vain
The skies become kaleidoscopes
With no two turns the same

And pebbles send them dancing off
In ripple rings of sun burnt clouds and windy blues
And maybe we will fall in love
Before the day is through

The daisy summer piper's come to town
Piping people out of doors
To see the magic all around

                           002102
Listen now you'll hear his sound 


D-------------4------------------4--7--4----------4----
A-------------4-------4---------4---------7--5--4------
F#----------0-------0----------0-----------------------
D---------0-------0------0----0------------------------
A----------------------------0-------------------------
D------0--------------------0--------------------------



000000   002102   00212x   00000x



------------------------------------------------------------------
 
Copyright © 1966; Gandalf Publishing Company 
Lyrics printed from the official Joni Mitchell website: JoniMitchell.com
Please respect the copyright owner by not profiting from this document. 

 

http://JoniMitchell.com/music/transcription.cfm?id=391
This transcription is the author's own work and represents their interpretation of the song.
You may only use this file for private study, scholarship, or research.
Copyrighted material on this website is used in accordance with 'Fair Use'