transcription from jonimitchell.com


For The Roses

Guitar tablature transcribed by Phil Champ
[Capo on fret 3]
Tuning: GGDGBD   "Joni" Tuning: G127543

Intro

D||----------|--------5-------------------0-----|-----------0-------------|
B||----------|--------3---------0---------------|--2--2--2-----------2----|
G||----------|-------------0----0-----0h4---0---|--0--0--0--------0--0----|
D||--------0-|-----------0------------------0---|--------------2--2--2----|
G||--0-3-4---|---------------------0----------0-|--0--0--0----------------|
G||----------|--0------------0------------------|-------------------------|



|---------------0-----------|-------------------x----------|
|--1--------1-1-1-----1-----|--0-------0h-1--0--x----------|
|--0-----0--0-0-------0-----|--0----0--0--0--0--x----------|
|-----1------------1-----1--|-----0----0h-2--0--x--------0-|
|--0------------0-----0-----|--0----------------x--0-3-4---|
|---------------------------|-------------------x----------|



Verse

||---------5---------0--------0----|---------------0------0-----|
||---------3---------0-------------|--2------2-----2------------|
||*-------------0-------0h4--------|--0----0------------0-------|
||*-----------0-----------------0--|-----2------2-----2------0--|
||---------0---------0-------------|--0------------0------------|
||---0------------0----------------|----------------------------|


                                   1.
|---------------0-------------||-------------------x----------|
|--1------1-----1------1------||--0------0h--1--0--x----------|
|--0----0------------0-------*||--0----0-0------0--x----------|
|-----1------1-----1------1--*||-----0---0h--2--0--x--------0-|
|--0------------0-------------||--0----------------x--0-3-4---|
|-----------------------------||-------------------x----------|


    2.

|-------------------x----------|
|--0------0h--1--0--x----------|
|--0----0-0------0--x----------|
|-----0---0---2-----x--------0-|
|--0-------------0--x--0-2-3---|
|-------------------x----------|



Chorus

|---------3---------3-------------|
|---------1---------1--------1----|
|--------------3---------3--------|
|------------0---------0-------0--|
|---------0---------0-------------|
|--0-------------0---------0------|



|--5------------5------------|---------------0------------|
|--3------3-----3------0-----|--1------1-----1------0-----|
|-------5------------5-------|--0----0------------0-------|
|-----0------0-----0------0--|-----2------2-----2------0--|
|--0------------0------------|--2------------2------------|
|----------------------------|----------------------------|



|----------------------------|---------------------------|
|--1------1-----0------0-----|--1------1-----0-----0-----|
|--2----2-------0----0-------|--0----2-------0-----0-----|
|-----3------3-----3------3--|-----3------3-----3-----3--|
|--0------------0------------|--0------------0-----0-----|
|----------------------------|---------------------------|



|------------------------------|---------------------0----------|
|--0h-1------0h-1--0-----------|--0h-1---------1-----1----------|
|--0--2---2--0--2--0-----0-----|--0--2----0h-2------------------|
|-------3-------------3-----3--|-------3----------3-----------0-|
|--0---------0-----0-----0-----|--0------------------0--0-3-4---|
|------------------------------|--------------------------------|


Outro

||-----------------------------------||
||-------------0-------------0-------||
||*----------0------0------0------0-*||
||*--------0------0------0------0---*||
||---0----------------0--------------||
||-----------------------------------||

 

http://JoniMitchell.com/music/transcription.cfm?id=378
This transcription is the author's own work and represents their interpretation of the song.
You may only use this file for private study, scholarship, or research.
Copyrighted material on this website is used in accordance with 'Fair Use'