transcription from jonimitchell.com


The Gallery

Guitar tablature transcribed by David Katz
Tuning: C#F#C#F#A#C#   "Joni" Tuning: C#57543

NOTE:  ^ = hammer on


To play with Joni's recording, move everything DOWN 1/2 step.  
The sixth string is not shown, as it is not used.



INTRO

1-------------------------------------------------0-------------------0------------------0-
2----12--------10-------12-----5--------5--------5----------0^1-----1-------1------0-
3------------0---------0---------------0----------------0--------------------2----2----0-
4--------12--------10-------0------5--------5---------------0^2---------2------------0-
5----12--------10-------12-----5--------5--------5----------0--------0--------------0-


VERSE           WHEN  I FIRST SAW


1-----------------------10----------10------------------0------------0-----------------
2------------------------8-----------8-------------------0------------0-----------------
3---0---0-----------0------------0-------0----------0----------0--------0-------------
4-----0---------10----------10-----------------10---------10-------------------------
5-----------10---------10----------10------10---------10----------10---------------



1----------------------0------------------0-----------------------------0------------------
2---5----------5----------5---------0^1-----1--------1------0-------------------------
3----------0------------------0-----0---------------0----0---------0---------REPEAT-
4-------5---------5-----------------0^3---------3---------------0---------0---VERSE 
5---5---------5-----------5--------0---------0----------------0--------0--------------




BRIDGE         

1-----------------------------------------------------------2-----------------0-------------
2-------------------0----------0-------2---2----3---------3----3----3------3--------3---
3--0----0----------0----------0-------2---2----2--------------0----0------0---------0--
4-----0--------12---------12-----0---2---2----2-----2--------4----4------4-----4-------
5----------12----------11-------------2------2-----2----------4--------4------4-----------


1----------------------------------0-------------------------------------------------------
2--1--------1---------1-----0^1----1-------1--------------------------------------------
3-------0---------0-----------------------0---------BACK TO VERSE--------------------
4-----2--------2------------------------2-------------------------------------------------
5--0--------0---------0-----0-------0-------0--------------------------------------------


CHORUS

LADY PLEASE LOVE ME

1--------------------0--------0---------0-------------5----------5-------0---------0----------
2--------------------1--------1---------3----5--------5----------5-------3---------3----------
3-FROM VERSE--------0--------0---------------5---------5------0----------0--------0----
4-----------------------2--------2---------------5---------5-----------------4---------4-------
5--------------------2--------2---------4----5--------5---------5--------4---------4----------


1--0--------------
2--1---0---------
3--0--------0-----REPEAT CHORUS
4----------0------
5--2---0---------

 

http://JoniMitchell.com/music/transcription.cfm?id=229
This transcription is the author's own work and represents their interpretation of the song.
You may only use this file for private study, scholarship, or research.
Copyrighted material on this website is used in accordance with 'Fair Use'