transcription from jonimitchell.com


Wild Things Run Fast

Guitar chords transcribed by Marian Russell
Tuning: CGCDGB   "Joni" Tuning: C75254

Intro:

||||||          ||||||          ||||||
888888          333333          666666
||||||          ||||||          ||||||


Bb---------------------------------------------------------------
G ---------------------------------------------------------------
D ---------------------------------------------------------------
C ---------------------------------------------------------------
G ---6-6-6-6-6-6-6-6----6-6-6-6-6-6-6-6----6-6-6-6-6-6-6-6----6--
C ---------------------------------------------------------------


1st verse:
       
       |||  |  |  |
       000 0h2 0 0h1
       |||  |  |  |
He came


       |||  |  |  |
       000 0h2 0 0h1
       |||  |  |  |
She smiled


||||||
000201
||||||
She thought she had him tamed, but he was just


||||||
555756
||||||
as wild     Eating from her hand at 


[Note:  The following is the chord 000201 with melody as indicated below]

Bb--(1)------------------------------
G -----------------------------------
D ------2-2-2-2-0-0-0-0-3-3-3-2-0----
C --------------------------------0--
G ---0-------------------------------
C ---0-------------------------------

    last


||||||           ||||||
888888           333333
||||||           ||||||
Wild             things run 


Bb--(1)--------------------------------(1)------------------------------
G ----------------------------------------------------------------------
D ------2-2-2-2-0-0-0-0-3-3-3-2-0----------2-2-2-2-0-0-0-0-3-3-3-2-0----
C --------------------------------0----------------------------------0--
G ---0----------------------------------0-------------------------------
C ---0----------------------------------0-------------------------------

    fast


2nd verse:

       |||  |  |  |
       000 0h2 0 0h1
       |||  |  |  |
In the dark


       |||  |  |  |
       000 0h2 0 0h1
       |||  |  |  |
He could see


||||||
000201
||||||
The trap that was lying in her sweet


||||||
555756
||||||
company  Eating from her hand at 


Bb--(1)-------------------------------
G ------------------------------------
D ------2-2-2-2-0-0-0-0-3-3-3-2-0-----
C --------------------------------0---
G ---0--------------------------------
C ---0--------------------------------

    last


||||||           ||||||
888888           333333
||||||           ||||||
Wild             things run 


||||||
000201
||||||
fast


Middle 8:

 |  |  |  |  |  |
10 10 10 10 10 10
 |  |  |  |  |  |
Winter beat the


||||||
555555
||||||
pines about


||||||
888888
||||||
He could hear the heater 


||||||
333333
||||||
cutting in and out


||||||
555555
||||||
              While she dreamed



||||||  slide to   ||||||
555555 ==========> 666666
||||||             ||||||  
   a -             way



Bb---------------------------------------------------------------
G ---------------------------------------------------------------
D ---------------------------------------------------------------
C ---------------------------------------------------------------
G ---6-6-6-6-6-6-6-6----6-6-6-6-6-6-6-6----6-6-6-6-6-6-6-6----6--
C ---------------------------------------------------------------

       
3rd verse:

       |||  |  |  |
       000 0h2 0 0h1
       |||  |  |  |
In the night


       |||  |  |  |
       000 0h2 0 0h1
       |||  |  |  |
It snowed


||||||
000201
||||||
Fast tracks in the powder white leading out to the


||||||
555756
||||||
road    Winding from her tender 



Bb--(1)------------------------------
G -----------------------------------
D ------2-2-2-2-0-0-0-0-3-3-3-2-0----
C --------------------------------0--
G ---0-------------------------------
C ---0-------------------------------

    grasp


||||||           ||||||
888888           333333
||||||           ||||||
Wild             things run 


Bb--(1)--------------------------------(1)------------------------------
G ----------------------------------------------------------------------
D ------2-2-2-2-0-0-0-0-3-3-3-2-0----------2-2-2-2-0-0-0-0-3-3-3-2-0----
C --------------------------------0----------------------------------0--
G ---0----------------------------------0-------------------------------
C ---0----------------------------------0-------------------------------

    fast


||||||           ||||||
888888           333333
||||||           ||||||
Wild             things run 


Bb--(1)--------------------------------(1)------------------------------
G ----------------------------------------------------------------------
D ------2-2-2-2-0-0-0-0-3-3-3-2-0----------2-2-2-2-0-0-0-0-3-3-3-2-0----
C --------------------------------0----------------------------------0--
G ---0----------------------------------0-------------------------------
C ---0----------------------------------0-------------------------------

    fast



||||||           ||||||
888888           333333
||||||           ||||||
Wild             things run 


||||||
000201
||||||
fast


||||||
5500xx
||||||
What makes you run wild thing I thought you loved me



Bb---------------
G ---------------
D ---------------
C ---------------
G -----0h5-------
C ---5-----------


© 1982 Crazy Crow Music BMI

 

http://JoniMitchell.com/music/transcription.cfm?id=104
This transcription is the author's own work and represents their interpretation of the song.
You may only use this file for private study, scholarship, or research.
Copyrighted material on this website is used in accordance with 'Fair Use'